Ping Yahoo hostgator discount

Pages

Wednesday, February 8, 2012

C.N.BLUE - 사랑 빛 (Love Light) [Acoustic Ver.]



INTRO (plucking):

e|----2-5-10-9-6-2---|-----5h7--7--5---|-----9-10-11-12--|
B|--3--------------5-|--3--------------|--5--------------|
G|-------------------|-----------------|-----------------|
D|-------------------|-----------------|-----------------|
A|-------------------|-----------------|-----------------|
E|-------------------|-----------------|-----------------|

D
geuh del bo myun ul gool ee bbal geh jigo
F#7
geuh del bo myun ga seum ee doogeun doogeun
G A [RIFF1]
ah ee chuh lum soo joob geh mal hago
D
geuh del bo myun gwen siri oo seum ee na
F#7 G
babo chuh rum ja ggoo man geuh leh
A [RIFF2]
ama neh geh sarang ee on gut gatah

---
D
geuh deh neun neh ma eum sok eh president
neh ga seum eh byul soo noh ji
F#7
i’m genie for you girl
neh soom eul mut geh haji
G
geuh deh ga won ha neun gun da
nuh reul sarang ha ni gga
A [RIFF1]
neh sarang eh ee yoo neun ub jan ah you know
---


D
geuh deh neun darling
F#7
bam ha neuk byul bit boda ah reum da wuh yo
G
neh mam sok gip peun got eh suh ban jjak guh li neun
A [RIFF1]
naman eh sarang beet

--
D
geuh del reul sarang heyo darling
F#7
uhn jena neh gyut hae suh beet cheul neh joyo
G
meh il bam bara bogo
A
bara bwado ah reum dawuh yo
[mute strings]
geuh den nah eh sarang beet
--

D
geuh del leul bo myun goo reum eul na neun gi boon
F#7 G A
yoo chi heh do ja ggoo man geuh leh ama neh geh sarang ee on gun ga bwah
--

[INTRO plucking]
--
D
geuh deh neun darling
F#7
bam ha neuk byul bit boda ah reum da wuh yo
G
neh mam sok gip peun got eh suh ban jjak guh li neun
A [RIFF1]
naman eh sarang beet
D
geuh del reul sarang heyo darling
F#7
uhn jena neh gyut hae suh beet cheul neh joyo
G
meh il bam bara bogo
A
bara bwado ah reum dawuh yo
geuh den nah eh sarang beet
--

(D,F#7,G,A) while nonsense sounds
--
D
geuh deh neun lovely
F#7
juh ha neul het sal boda noon ee boo shuh yo
G
neh mam sok uh doon got gga ji bal geh bee choo neun
A [RIFF1]
naman eh sarang beet
D
geuh del leul sarang heyo lovely
F#7
doo noon eul gam ah bwado geuh deh bo yuh yo
G
ee luh geh bara bora go
A
bara bwado noon ee boo shuh yo
[mute strings] [ENDRIFF]
geuh den nah eh sarang beet.


-----

RIFF1
e|---------------------|
B|----3h5-3h2----------|
G|-2-4-------4h2-------|
D|---------------------|
A|---------------------|
E|---------------------|

RIFF2
e|-7h9-7-5-----|
B|---------6-5-|
G|-------------|
D|-------------|
A|-------------|
E|-------------|



ENDRIFF
e|----2-5-10---|
B|--3----------|
G|-------------|
D|-------------|
A|-------------|
E|-------------|


Enjoy!

7 comments:

  1. hey nice entry yoo.. yong hwa chaiyok !!

    ReplyDelete
  2. thanks for sharing~

    Regards,
    http://www.lonelyreload.com (A Growing Teenager Diary) ..

    ReplyDelete
  3. nice blog
    im follow ur blog

    anda ditag
    http://sayacikamal.blogspot.com/2012/04/segmen-blogwalking-follow-by-hajar_20.html

    ReplyDelete
  4. I really liked this part of the article, with a nice and interesting topics have helped a lot of people who do not challenge things people should know.. You need more publicize this so many people who know about it are rare for people to know this... Success for you.....!!!

    ReplyDelete