Ping Yahoo hostgator discount

Pages

Friday, February 10, 2012

이승기(Lee, Seung-gi) - 결혼해줄래(Will You Marry Me) Tabs



D
narang gyeolhon hae jullae?


G
narang pyeongsaengeul hamkke sallae?


Em A7 D
uri duri alkongdalkong seoro saranghamyeo


D G
na darmeun ai hana, neo darmeun ai hana nako


  Em     A7     D   D7
cheonnyeonmannyeon, apeuji malgo, nan salgo sipeunde


G A7   F#m
soljikhi malhaeseo, naega neol deo johahae


 Bm7 Em E7 A A7
namjawa yeojasaien, geuge jotago hadeonde




D Bm
naega deo saranghalge, naega deo akkyeojulge


G F#m Bm7 Em   A
nunmuri nago himi deul ttaemyeon, apeul ttaemyeon hamkke, apahalge


D Bm7 G  
pyeongsaengeul saranghalge, pyeongsaengeul jikyeojulge, neomankeum joheun saram mannan geol


F#m Bm7 Em   G  A  D
gamsahae maeil, neoman saranghago sipeo
D
narang gyeolhonhae jullae


(Rap) Marry me maeiri haengboge gyeowoseo
gwaensiri naeiri gidae doeneun saram
waeiri waeiri tteollineun geolkka
bogo tto bwado naegen jeirin sarang
geomeunmeori pappuri doel ttae kkaji
uri durui saengi da kkeutnal ttae kkaji
sone mureun mutyeodo nune nunmul jeoldae an mutyeo



neon naui banjjok gaseum, nan neoui banjjok gaseum doeeo
sumeul swineun, geu sungansungan, neol saranghae julkke
sigani jinaseo, jureumi neureonado
kkok jigeumcheoreom neowana, yeongwonhi hamkke hal geoya
naega deo saranghalge, naega deo akkyeojulge
nunmuri nago himi deul ttaemyeon, apeul ttaemyeon hamkke, apahalge
pyeongsaengeul saranghalge, pyeongsaengeul jikyeojulge neomankeum joheun saram mannan geol
gamsahae maeil, neoman saranghago sipeo



(Rap) neoneun machi eoduwotdeon nae sarmeul barkhyeojuneun bit
bogeulbogeul jjigaesoriro bangyeojuneun jip
mae mallatdeon nae mame naeryeojuneun bi
sarangiran cham uimiga damgyeoinneun si
haneuri jeonghae jun unmyeongui kkeun
neowa naui mannameun cheonsaengyeonbun
i sesangeul dajundaedo bakkul su eomneun nae sarmen ojik pyeongsaeng neoppun



naega deo saranghalge, naega deo akkyeojulge
nunmuri nago himi deul ttaemyeon, apeul ttaemyeon hamkke, apahalge
pyeongsaengeul saranghalge, pyeongsaengeul jikyeojulge neomankeum joheun saram mannan geol
gamsahae maeil, neoman saranghago sipeo


narang gyeolhonhae jullae…?

---------------------------------------------------------------------------------------------


other version

Standard Tuning (Capo 2 for Original Key)
이승기(Lee, Seung-gi) - 결혼해줄래(Will You Marry Me)
Tabbed by Isaac Lee (youtube.com/izAkly)


Intro/Verse(x2)
e--0-------------------1-------0-----------|
B----------3-------------------------------|
G-------0-------0----------0-------0-----|
D----2-------2-----2----2-------2----2--|
A-3-------------------3-------------------|
E------------------------------------------|

e-0-----------------------------3--1--0--|
B----------3-----------------1------------|
G-------2-------2---------2--------------|
D----2-------2----2---2-----------------|
A-0---------------------------------------|
E------------------------------------------|

e----------0-----------------------------|
B-------1----1-------------3------------|
G----2---------2-------0----0---------|
D-3-----------------0---------0-------|
A---------------------------------------|
E----------------3---------------------|

e------------------------0-----------------|
B-----------3-----------3-----------------|
G--------0-------0-----0-----------------|
D-----2-------2--------2-----------------|
A--3-------------------3-----------------|
E-----------------------------------------|


Pre-Chorus
e----------0------------------0----------|
B-------1--------1---------1-------1-----|
G----2-------2----2----2-------2---2--|
D-3-----------------4-------------------|
A----------------------------------------|
E----------------------------------------|

e-------------0---------0-------------|
B----------0----0------1-------------|
G-------0---------0---2-------------|
D----2-----------------2-------------|
A----------------------0-------------|
E-0--------------------x-------------|

E----------1--------2----------3--------3--|
B-------3----------3-------3-----3-----3--|
G----2---------0--2----0----------0---0--|
D-0---------2----0---------------------0--|
A-----------------0---------------------2--|
E---------------------3-----------------3--|

Chords
Ex. (eBGDAE)
C (x3201x)
Am (x0201x)
F (x3321x)
Dm (x00231)
G (320033)

Chorus
C Am
F C Dm G
C Am
F C Dm G
C

39 comments:

  1. x reti men gtar..heheheh~

    teringin tapi kayu....^^

    ReplyDelete
  2. omo omo omo seunggi oppa saranghae ..kalau la boleh main gitar dapat main lagu ni tapi tak reti *cries*

    ReplyDelete
  3. Interesting.... :-)

    http://redroza-aarzie.blogspot.com

    ReplyDelete
  4. Hello ~ My name is Tina, 13 years old ~ Tina disini nak stalker blog-blog yang comel. Hee :D Awesome blog ! Done follow u . I'll always support ur blog. Chills :*

    http://secret-domokun.blogspot.com/

    ReplyDelete
  5. kunjungan hangat.. kunjung balik ya. jangan lupa follow nya.. :D

    ReplyDelete
  6. bagusnya orang zaman skrg ye

    ReplyDelete
  7. penyanyi tu nari mcm wonder girls..erkk??..lain macam je tgk hehehe..waa byk nyer code2 guitar..waa nak bljr jugak main gitar laa kal mcm nie :)

    ReplyDelete
  8. pergh...tab lagu korea kot..nasib guitar xda sebelah..kalau x gua layan dah ni.. ;-)

    ReplyDelete
  9. SIAPA HINA ISLAM?
    ikutilah kisah penghinaan terhadap masjid dan ahli khariah kampung baru sedenak oleh pentadbir yang jahil dan zalim di www.karamsingwali.blogspot.com
    tolong2 share...

    ReplyDelete
  10. Korean songs relly make asian countries want to know lots about Korea. Thanks for sharing.
    http://fashionshowatch.blogspot.com/2012/05/niagara-falls-world-honeymoon-capital.html

    ReplyDelete
  11. How to live in this world and not leave the system dominate you?

    http://blogdosultimos.blogspot.com.br/2012/06/como-viver-neste-mundo-como-viver-sem.html

    God Bless You!

    Xoxo

    Claudia

    ReplyDelete
  12. Nice korean song, thanks. Wish you a great day.

    ReplyDelete
  13. nice korean song , i like that :) thanks for sharing ,

    ReplyDelete
  14. sekedar mampir gan. .
    follow balik ya
    http://ronigaulmamen.blogspot.com/

    ReplyDelete
  15. salam super sahabat,
    tetap semangat dan sukses selalu ya
    ditunggu kunjungan baliknya :)

    ReplyDelete
  16. salam super sahabat,
    tetap semangat dan sukses selalu ya
    ditunggu kunjungan baliknya :)

    ReplyDelete
  17. salam super sahabat,
    tetap semangat dan sukses selalu ya
    ditunggu kunjungan baliknya :)

    ReplyDelete
  18. Kami pembekal strip ujian kehamilan dan ovulasi dengan harga yang murah tetapi berkualiti.
    Kami menjual secara runcit pukal dan dropship.
    Harga serendah RM1.00/pcs.
    Lebih banyak anda beli, lebih DISKAUN kami beri
    Untuk keterangan lajut lawati blog shop kami:
    http://kit-ujian-kehamilan-murah.blogspot.com/

    ReplyDelete

  19. kunjungan gan,bagi - bagi motivasi
    semoga bisa jadi semangat
    Hal mudah akan terasa sulit jika yg pertama dipikirkan adalah kata SULIT.Yakinlah bahwa kita memiliki kemampuan dan kekuatan.
    ditunggu kunjungan baliknya yaa :)

    ReplyDelete
  20. nice day :)
    hargailah hari kemaren,
    mimpikanlah hari esok,
    tetapi hiduplah untuk hari ini.
    bagi-bagi motivasinya yaah...

    http://www.nolimitadventure.com/

    ReplyDelete
  21. 안녕하세요~hi we are twinscraflife! We sell handmade products such as phone cover, ear plug, pouch, bag, bookmarks! All are very unique and are customizable^^ 감사합니다~ please visit us at http://twinscraftlife.blogspot.com/

    ReplyDelete
  22. Nice Post, Thank for your very useful information

    ReplyDelete
  23. Hello !
    Welcome. The "Directory Blogspot" it is not a spam, it's not a robot, it is a site like yours done by a person like you.
    The goal is to promote your blog in the world!
    I suggest you to publicize your blog by registering on the "international directory blogspot"
    The "directory" is 27 million visits, 198 countries of the world! and more than 19,000 blogs.
    In comments, please your URL. site name. and your Country
    Activity is only friendly
    Imperative to follow our blog to validate your registration
    We hope that you will know our site with your friends.
    Thank you for your understanding
    I wish you an excellent day
    sincerely
    Chris
    http://world-directory-sweetmelody.blogspot.com/
    Thank you to follow my blog - it is greatly appreciated! O)
    We follow your blog, please follow us in return!
    +++++++++++

    ReplyDelete